  0
SECTION
  2
HEADER
  9
$ACADVER
  1
AC1009
  9
$EXTMIN
 10
530624.252123
 20
183488.476225
 30
0.0
  9
$EXTMAX
 10
531453.490898
 20
184588.331395
 30
0.0
  9
$LIMMIN
 10
530582.790184
 20
183433.483467
  9
$LIMMAX
 10
531494.952837
 20
184643.324153
  0
ENDSEC
  0
SECTION
  2
TABLES
  0
TABLE
  2
LTYPE
 70
     3
  0
LTYPE
  2
CONTINUOUS
 70
     0
  3
Solid Line
 72
    65
 73
     0
 40
0.0
  0
LTYPE
  2
DASHED
 70
     0
  3
_ _ _ _ _
 72
    65
 73
     2
 40
0.75
 49
0.5
 49
-0.25
  0
LTYPE
  2
DOT
 70
     0
  3
. . . . .
 72
    65
 73
     2
 40
1.0
 49
0.0
 49
-1.0
  0
ENDTAB
  0
ENDSEC
  0
SECTION
  2
BLOCKS
  0
ENDSEC
  0
SECTION
  2
ENTITIES
  0
POLYLINE
  8
0
  6
CONTINUOUS
 62
     7
 70
     1
 75
     5
 66
     1
  0
VERTEX
  8
0
 10
531113.802626
 20
184390.777944
 30
0.0
  0
VERTEX
  8
0
 10
531112.994610
 20
184388.228674
 30
0.0
  0
VERTEX
  8
0
 10
530941.686975
 20
184329.975349
 30
0.0
  0
VERTEX
  8
0
 10
530939.106271
 20
184330.595171
 30
0.0
  0
VERTEX
  8
0
 10
530940.334785
 20
184380.110997
 30
0.0
  0
VERTEX
  8
0
 10
530942.964960
 20
184381.520594
 30
0.0
  0
VERTEX
  8
0
 10
531092.159341
 20
184437.734503
 30
0.0
  0
VERTEX
  8
0
 10
531095.119317
 20
184437.664523
 30
0.0
  0
SEQEND
  8
0
 62
     7
  0
POLYLINE
  8
0
  6
CONTINUOUS
 62
     7
 70
     1
 75
     5
 66
     1
  0
VERTEX
  8
0
 10
531106.942735
 20
184443.062978
 30
0.0
  0
VERTEX
  8
0
 10
531108.294925
 20
184445.422302
 30
0.0
  0
VERTEX
  8
0
 10
531184.429819
 20
184479.362587
 30
0.0
  0
VERTEX
  8
0
 10
531231.443158
 20
184498.417133
 30
0.0
  0
VERTEX
  8
0
 10
531255.057013
 20
184508.304303
 30
0.0
  0
VERTEX
  8
0
 10
531270.170210
 20
184512.163198
 30
0.0
  0
VERTEX
  8
0
 10
531272.206740
 20
184511.923267
 30
0.0
  0
VERTEX
  8
0
 10
531292.522570
 20
184448.861318
 30
0.0
  0
VERTEX
  8
0
 10
531292.308199
 20
184447.581684
 30
0.0
  0
VERTEX
  8
0
 10
531276.048938
 20
184442.653095
 30
0.0
  0
VERTEX
  8
0
 10
531275.084266
 20
184441.203510
 30
0.0
  0
VERTEX
  8
0
 10
531277.871097
 20
184433.975579
 30
0.0
  0
VERTEX
  8
0
 10
531281.944157
 20
184433.515711
 30
0.0
  0
VERTEX
  8
0
 10
531301.748794
 20
184439.454011
 30
0.0
  0
VERTEX
  8
0
 10
531303.282375
 20
184441.443441
 30
0.0
  0
VERTEX
  8
0
 10
531280.748623
 20
184512.453115
 30
0.0
  0
VERTEX
  8
0
 10
531280.262164
 20
184515.032377
 30
0.0
  0
VERTEX
  8
0
 10
531289.438918
 20
184518.671335
 30
0.0
  0
VERTEX
  8
0
 10
531288.779313
 20
184521.990385
 30
0.0
  0
VERTEX
  8
0
 10
531287.600269
 20
184526.789011
 30
0.0
  0
VERTEX
  8
0
 10
531289.669779
 20
184528.208605
 30
0.0
  0
VERTEX
  8
0
 10
531330.779654
 20
184540.795002
 30
0.0
  0
VERTEX
  8
0
 10
531333.005820
 20
184540.735019
 30
0.0
  0
VERTEX
  8
0
 10
531368.706935
 20
184425.358046
 30
0.0
  0
VERTEX
  8
0
 10
531367.898919
 20
184422.628827
 30
0.0
  0
VERTEX
  8
0
 10
531287.311692
 20
184395.946465
 30
0.0
  0
VERTEX
  8
0
 10
531284.887644
 20
184402.794504
 30
0.0
  0
VERTEX
  8
0
 10
531282.133793
 20
184403.964170
 30
0.0
  0
VERTEX
  8
0
 10
531271.110147
 20
184400.555145
 30
0.0
  0
VERTEX
  8
0
 10
531270.137229
 20
184398.745663
 30
0.0
  0
VERTEX
  8
0
 10
531272.899325
 20
184390.418047
 30
0.0
  0
VERTEX
  8
0
 10
531272.693198
 20
184389.508308
 30
0.0
  0
VERTEX
  8
0
 10
531146.304657
 20
184347.970198
 30
0.0
  0
VERTEX
  8
0
 10
531144.094980
 20
184348.570026
 30
0.0
  0
VERTEX
  8
0
 10
531106.942735
 20
184443.062978
 30
0.0
  0
SEQEND
  8
0
 62
     7
  0
POLYLINE
  8
0
  6
CONTINUOUS
 62
     7
 70
     1
 75
     5
 66
     1
  0
VERTEX
  8
0
 10
531164.410811
 20
184300.553770
 30
0.0
  0
VERTEX
  8
0
 10
531152.100935
 20
184334.983915
 30
0.0
  0
VERTEX
  8
0
 10
531152.488453
 20
184335.893655
 30
0.0
  0
VERTEX
  8
0
 10
531192.699616
 20
184349.599731
 30
0.0
  0
VERTEX
  8
0
 10
531370.644524
 20
184406.043574
 30
0.0
  0
VERTEX
  8
0
 10
531372.672809
 20
184405.623695
 30
0.0
  0
VERTEX
  8
0
 10
531387.274813
 20
184351.499188
 30
0.0
  0
VERTEX
  8
0
 10
531386.458551
 20
184348.590020
 30
0.0
  0
VERTEX
  8
0
 10
531359.950680
 20
184341.522043
 30
0.0
  0
VERTEX
  8
0
 10
531167.873737
 20
184290.746578
 30
0.0
  0
VERTEX
  8
0
 10
531164.410811
 20
184300.553770
 30
0.0
  0
SEQEND
  8
0
 62
     7
  0
POLYLINE
  8
0
  6
CONTINUOUS
 62
     7
 70
     1
 75
     5
 66
     1
  0
VERTEX
  8
0
 10
531193.631308
 20
184215.248189
 30
0.0
  0
VERTEX
  8
0
 10
531194.785616
 20
184217.047674
 30
0.0
  0
VERTEX
  8
0
 10
531404.638911
 20
184266.663471
 30
0.0
  0
VERTEX
  8
0
 10
531407.038224
 20
184266.243592
 30
0.0
  0
VERTEX
  8
0
 10
531420.370488
 20
184213.068813
 30
0.0
  0
VERTEX
  8
0
 10
531419.199689
 20
184210.889437
 30
0.0
  0
VERTEX
  8
0
 10
531207.656156
 20
184160.213942
 30
0.0
  0
VERTEX
  8
0
 10
531206.378172
 20
184161.163670
 30
0.0
  0
VERTEX
  8
0
 10
531193.631308
 20
184215.248189
 30
0.0
  0
SEQEND
  8
0
 62
     7
  0
POLYLINE
  8
0
  6
CONTINUOUS
 62
     7
 70
     1
 75
     5
 66
     1
  0
VERTEX
  8
0
 10
531173.645279
 20
184276.660610
 30
0.0
  0
VERTEX
  8
0
 10
531174.247169
 20
184278.480089
 30
0.0
  0
VERTEX
  8
0
 10
531251.726008
 20
184299.544060
 30
0.0
  0
VERTEX
  8
0
 10
531381.074527
 20
184333.304396
 30
0.0
  0
VERTEX
  8
0
 10
531389.080481
 20
184334.763978
 30
0.0
  0
VERTEX
  8
0
 10
531391.290157
 20
184333.974204
 30
0.0
  0
VERTEX
  8
0
 10
531404.465765
 20
184282.089056
 30
0.0
  0
VERTEX
  8
0
 10
531404.070002
 20
184280.989371
 30
0.0
  0
VERTEX
  8
0
 10
531191.380406
 20
184229.244183
 30
0.0
  0
VERTEX
  8
0
 10
531188.230792
 20
184229.324160
 30
0.0
  0
VERTEX
  8
0
 10
531173.645279
 20
184276.660610
 30
0.0
  0
SEQEND
  8
0
 62
     7
  0
POLYLINE
  8
0
  6
CONTINUOUS
 62
     7
 70
     1
 75
     5
 66
     1
  0
VERTEX
  8
0
 10
531211.869383
 20
184143.228804
 30
0.0
  0
VERTEX
  8
0
 10
531213.007201
 20
184144.308495
 30
0.0
  0
VERTEX
  8
0
 10
531249.557557
 20
184152.596123
 30
0.0
  0
VERTEX
  8
0
 10
531250.769581
 20
184148.897182
 30
0.0
  0
VERTEX
  8
0
 10
531254.108831
 20
184149.187099
 30
0.0
  0
VERTEX
  8
0
 10
531257.299669
 20
184150.576701
 30
0.0
  0
VERTEX
  8
0
 10
531257.398610
 20
184154.605548
 30
0.0
  0
VERTEX
  8
0
 10
531260.762595
 20
184155.815201
 30
0.0
  0
VERTEX
  8
0
 10
531397.358522
 20
184189.945432
 30
0.0
  0
VERTEX
  8
0
 10
531399.766080
 20
184190.075395
 30
0.0
  0
VERTEX
  8
0
 10
531401.365622
 20
184187.286193
 30
0.0
  0
VERTEX
  8
0
 10
531403.031124
 20
184187.056259
 30
0.0
  0
VERTEX
  8
0
 10
531407.508192
 20
184188.235921
 30
0.0
  0
VERTEX
  8
0
 10
531407.244351
 20
184192.274765
 30
0.0
  0
VERTEX
  8
0
 10
531421.046583
 20
184195.613809
 30
0.0
  0
VERTEX
  8
0
 10
531423.066623
 20
184194.834032
 30
0.0
  0
VERTEX
  8
0
 10
531430.775755
 20
184161.793490
 30
0.0
  0
VERTEX
  8
0
 10
531430.528403
 20
184159.414171
 30
0.0
  0
VERTEX
  8
0
 10
531430.330522
 20
184151.166532
 30
0.0
  0
VERTEX
  8
0
 10
531428.343462
 20
184138.360198
 30
0.0
  0
VERTEX
  8
0
 10
531360.577305
 20
184120.185400
 30
0.0
  0
VERTEX
  8
0
 10
531350.040117
 20
184106.679266
 30
0.0
  0
VERTEX
  8
0
 10
531347.937626
 20
184104.159988
 30
0.0
  0
VERTEX
  8
0
 10
531345.480598
 20
184102.380497
 30
0.0
  0
VERTEX
  8
0
 10
531341.184921
 20
184101.200835
 30
0.0
  0
VERTEX
  8
0
 10
531228.013212
 20
184083.935777
 30
0.0
  0
VERTEX
  8
0
 10
531224.302935
 20
184083.925780
 30
0.0
  0
VERTEX
  8
0
 10
531222.678658
 20
184085.525322
 30
0.0
  0
VERTEX
  8
0
 10
531211.869383
 20
184143.228804
 30
0.0
  0
SEQEND
  8
0
 62
     7
  0
POLYLINE
  8
0
  6
CONTINUOUS
 62
     7
 70
     1
 75
     5
 66
     1
  0
VERTEX
  8
0
 10
531273.954693
 20
184074.558461
 30
0.0
  0
VERTEX
  8
0
 10
531272.132534
 20
184075.888080
 30
0.0
  0
VERTEX
  8
0
 10
531229.151031
 20
184069.959777
 30
0.0
  0
VERTEX
  8
0
 10
531227.444303
 20
184068.530187
 30
0.0
  0
VERTEX
  8
0
 10
531226.825923
 20
184066.160865
 30
0.0
  0
VERTEX
  8
0
 10
531228.458446
 20
184057.123452
 30
0.0
  0
VERTEX
  8
0
 10
531226.537346
 20
184054.234279
 30
0.0
  0
VERTEX
  8
0
 10
531224.649227
 20
184053.184579
 30
0.0
  0
VERTEX
  8
0
 10
531212.372331
 20
184014.205737
 30
0.0
  0
VERTEX
  8
0
 10
531202.148456
 20
183998.300290
 30
0.0
  0
VERTEX
  8
0
 10
531185.930420
 20
183920.152659
 30
0.0
  0
VERTEX
  8
0
 10
531183.745479
 20
183906.806479
 30
0.0
  0
VERTEX
  8
0
 10
531184.050547
 20
183896.889318
 30
0.0
  0
VERTEX
  8
0
 10
531185.683069
 20
183895.379750
 30
0.0
  0
VERTEX
  8
0
 10
531189.187220
 20
183894.380037
 30
0.0
  0
VERTEX
  8
0
 10
531298.994943
 20
183910.445438
 30
0.0
  0
VERTEX
  8
0
 10
531300.874817
 20
183911.685083
 30
0.0
  0
VERTEX
  8
0
 10
531300.305908
 20
183918.673083
 30
0.0
  0
VERTEX
  8
0
 10
531294.377709
 20
183952.493402
 30
0.0
  0
VERTEX
  8
0
 10
531293.380057
 20
183953.433133
 30
0.0
  0
VERTEX
  8
0
 10
531274.399926
 20
183950.583948
 30
0.0
  0
VERTEX
  8
0
 10
531272.173760
 20
183950.733905
 30
0.0
  0
VERTEX
  8
0
 10
531271.118392
 20
183952.773322
 30
0.0
  0
VERTEX
  8
0
 10
531258.973417
 20
184023.902961
 30
0.0
  0
VERTEX
  8
0
 10
531259.047622
 20
184027.022068
 30
0.0
  0
VERTEX
  8
0
 10
531261.859188
 20
184028.061771
 30
0.0
  0
VERTEX
  8
0
 10
531280.649682
 20
184030.721009
 30
0.0
  0
VERTEX
  8
0
 10
531281.243327
 20
184031.990646
 30
0.0
  0
VERTEX
  8
0
 10
531273.954693
 20
184074.558461
 30
0.0
  0
SEQEND
  8
0
 62
     7
  0
POLYLINE
  8
0
  6
CONTINUOUS
 62
     7
 70
     1
 75
     5
 66
     1
  0
VERTEX
  8
0
 10
531275.249167
 20
184014.795568
 30
0.0
  0
VERTEX
  8
0
 10
531276.782749
 20
184016.685027
 30
0.0
  0
VERTEX
  8
0
 10
531308.542724
 20
184022.343407
 30
0.0
  0
VERTEX
  8
0
 10
531310.661705
 20
184021.923528
 30
0.0
  0
VERTEX
  8
0
 10
531319.129383
 20
183974.737035
 30
0.0
  0
VERTEX
  8
0
 10
531318.989216
 20
183972.727610
 30
0.0
  0
VERTEX
  8
0
 10
531318.032789
 20
183971.557945
 30
0.0
  0
VERTEX
  8
0
 10
531286.841723
 20
183966.159490
 30
0.0
  0
VERTEX
  8
0
 10
531283.889991
 20
183966.779312
 30
0.0
  0
VERTEX
  8
0
 10
531275.249167
 20
184014.795568
 30
0.0
  0
SEQEND
  8
0
 62
     7
  0
POLYLINE
  8
0
  6
CONTINUOUS
 62
     7
 70
     1
 75
     5
 66
     1
  0
VERTEX
  8
0
 10
531151.144508
 20
184132.401903
 30
0.0
  0
VERTEX
  8
0
 10
531193.837434
 20
184141.469308
 30
0.0
  0
VERTEX
  8
0
 10
531196.244992
 20
184141.409325
 30
0.0
  0
VERTEX
  8
0
 10
531197.160194
 20
184140.839488
 30
0.0
  0
VERTEX
  8
0
 10
531209.733912
 20
184087.124864
 30
0.0
  0
VERTEX
  8
0
 10
531212.141470
 20
184072.019188
 30
0.0
  0
VERTEX
  8
0
 10
531213.419454
 20
184063.911509
 30
0.0
  0
VERTEX
  8
0
 10
531212.825810
 20
184054.754130
 30
0.0
  0
VERTEX
  8
0
 10
531202.338092
 20
184020.873828
 30
0.0
  0
VERTEX
  8
0
 10
531201.027127
 20
184020.174028
 30
0.0
  0
VERTEX
  8
0
 10
531095.160543
 20
184035.939516
 30
0.0
  0
VERTEX
  8
0
 10
531087.937869
 20
184036.489358
 30
0.0
  0
VERTEX
  8
0
 10
531078.662176
 20
184036.159453
 30
0.0
  0
VERTEX
  8
0
 10
531076.262863
 20
184036.579332
 30
0.0
  0
VERTEX
  8
0
 10
531075.372396
 20
184038.258852
 30
0.0
  0
VERTEX
  8
0
 10
531062.914109
 20
184111.597859
 30
0.0
  0
VERTEX
  8
0
 10
531063.532488
 20
184113.967180
 30
0.0
  0
VERTEX
  8
0
 10
531064.645572
 20
184114.127135
 30
0.0
  0
VERTEX
  8
0
 10
531139.593177
 20
184130.112559
 30
0.0
  0
VERTEX
  8
0
 10
531141.431826
 20
184129.332782
 30
0.0
  0
VERTEX
  8
0
 10
531142.701565
 20
184128.383054
 30
0.0
  0
VERTEX
  8
0
 10
531147.879463
 20
184105.509601
 30
0.0
  0
VERTEX
  8
0
 10
531147.458965
 20
184103.500176
 30
0.0
  0
VERTEX
  8
0
 10
531145.397700
 20
184102.630425
 30
0.0
  0
VERTEX
  8
0
 10
531091.145198
 20
184090.913779
 30
0.0
  0
VERTEX
  8
0
 10
531089.636352
 20
184089.664137
 30
0.0
  0
VERTEX
  8
0
 10
531090.254731
 20
184084.875508
 30
0.0
  0
VERTEX
  8
0
 10
531091.359570
 20
184084.485619
 30
0.0
  0
VERTEX
  8
0
 10
531097.485650
 20
184084.885505
 30
0.0
  0
VERTEX
  8
0
 10
531155.283528
 20
184097.431914
 30
0.0
  0
VERTEX
  8
0
 10
531156.808865
 20
184099.051450
 30
0.0
  0
VERTEX
  8
0
 10
531156.338896
 20
184102.370500
 30
0.0
  0
VERTEX
  8
0
 10
531149.594436
 20
184129.692679
 30
0.0
  0
VERTEX
  8
0
 10
531150.204571
 20
184131.872055
 30
0.0
  0
VERTEX
  8
0
 10
531151.144508
 20
184132.401903
 30
0.0
  0
SEQEND
  8
0
 62
     7
  0
POLYLINE
  8
0
  6
CONTINUOUS
 62
     7
 70
     1
 75
     5
 66
     1
  0
VERTEX
  8
0
 10
531192.336833
 20
184155.635253
 30
0.0
  0
VERTEX
  8
0
 10
531192.757331
 20
184157.824626
 30
0.0
  0
VERTEX
  8
0
 10
531192.444019
 20
184160.033994
 30
0.0
  0
VERTEX
  8
0
 10
531177.874996
 20
184215.628080
 30
0.0
  0
VERTEX
  8
0
 10
531175.640584
 20
184222.466123
 30
0.0
  0
VERTEX
  8
0
 10
531173.801936
 20
184223.245900
 30
0.0
  0
VERTEX
  8
0
 10
531079.602112
 20
184193.594387
 30
0.0
  0
VERTEX
  8
0
 10
531077.062634
 20
184195.853741
 30
0.0
  0
VERTEX
  8
0
 10
531074.918918
 20
184199.032831
 30
0.0
  0
VERTEX
  8
0
 10
531072.362949
 20
184200.742341
 30
0.0
  0
VERTEX
  8
0
 10
531069.386482
 20
184200.262479
 30
0.0
  0
VERTEX
  8
0
 10
531050.208470
 20
184197.243343
 30
0.0
  0
VERTEX
  8
0
 10
531040.462807
 20
184192.884590
 30
0.0
  0
VERTEX
  8
0
 10
531039.135353
 20
184191.814897
 30
0.0
  0
VERTEX
  8
0
 10
531028.664125
 20
184188.405872
 30
0.0
  0
VERTEX
  8
0
 10
531026.619350
 20
184188.265913
 30
0.0
  0
VERTEX
  8
0
 10
531012.033837
 20
184183.297335
 30
0.0
  0
VERTEX
  8
0
 10
531009.420152
 20
184182.627527
 30
0.0
  0
VERTEX
  8
0
 10
531008.067962
 20
184180.458148
 30
0.0
  0
VERTEX
  8
0
 10
531009.857141
 20
184170.321049
 30
0.0
  0
VERTEX
  8
0
 10
531011.530888
 20
184162.943161
 30
0.0
  0
VERTEX
  8
0
 10
531012.602746
 20
184153.925742
 30
0.0
  0
VERTEX
  8
0
 10
531012.396619
 20
184130.802361
 30
0.0
  0
VERTEX
  8
0
 10
531014.029142
 20
184129.292793
 30
0.0
  0
VERTEX
  8
0
 10
531054.809214
 20
184128.672971
 30
0.0
  0
VERTEX
  8
0
 10
531126.005316
 20
184142.918893
 30
0.0
  0
VERTEX
  8
0
 10
531128.280953
 20
184145.068278
 30
0.0
  0
VERTEX
  8
0
 10
531133.862860
 20
184145.848055
 30
0.0
  0
VERTEX
  8
0
 10
531136.229192
 20
184144.138544
 30
0.0
  0
VERTEX
  8
0
 10
531140.318742
 20
184144.408467
 30
0.0
  0
VERTEX
  8
0
 10
531192.336833
 20
184155.635253
 30
0.0
  0
SEQEND
  8
0
 62
     7
  0
POLYLINE
  8
0
  6
CONTINUOUS
 62
     7
 70
     1
 75
     5
 66
     1
  0
VERTEX
  8
0
 10
531158.358936
 20
184273.541503
 30
0.0
  0
VERTEX
  8
0
 10
531155.588596
 20
184273.791431
 30
0.0
  0
VERTEX
  8
0
 10
531070.433605
 20
184249.968250
 30
0.0
  0
VERTEX
  8
0
 10
531068.735122
 20
184248.908554
 30
0.0
  0
VERTEX
  8
0
 10
531068.685652
 20
184246.899129
 30
0.0
  0
VERTEX
  8
0
 10
531079.272310
 20
184210.119657
 30
0.0
  0
VERTEX
  8
0
 10
531080.550295
 20
184209.169929
 30
0.0
  0
VERTEX
  8
0
 10
531082.768216
 20
184208.929998
 30
0.0
  0
VERTEX
  8
0
 10
531170.000962
 20
184234.532669
 30
0.0
  0
VERTEX
  8
0
 10
531170.775998
 20
184235.802305
 30
0.0
  0
VERTEX
  8
0
 10
531170.833714
 20
184238.001676
 30
0.0
  0
SEQEND
  8
0
 62
     7
  0
POLYLINE
  8
0
  6
CONTINUOUS
 62
     7
 70
     1
 75
     5
 66
     1
  0
VERTEX
  8
0
 10
531152.826500
 20
184286.467803
 30
0.0
  0
VERTEX
  8
0
 10
531153.634516
 20
184288.117330
 30
0.0
  0
VERTEX
  8
0
 10
531152.768785
 20
184290.416672
 30
0.0
  0
VERTEX
  8
0
 10
531138.331683
 20
184332.334673
 30
0.0
  0
VERTEX
  8
0
 10
531132.156132
 20
184343.111588
 30
0.0
  0
VERTEX
  8
0
 10
531121.371592
 20
184371.743393
 30
0.0
  0
VERTEX
  8
0
 10
531119.945196
 20
184373.512886
 30
0.0
  0
VERTEX
  8
0
 10
531117.925156
 20
184373.912772
 30
0.0
  0
VERTEX
  8
0
 10
530941.398398
 20
184316.919086
 30
0.0
  0
VERTEX
  8
0
 10
530938.908390
 20
184315.309547
 30
0.0
  0
VERTEX
  8
0
 10
530932.757574
 20
184129.442751
 30
0.0
  0
VERTEX
  8
0
 10
530933.796452
 20
184128.203105
 30
0.0
  0
VERTEX
  8
0
 10
530998.314055
 20
184126.953463
 30
0.0
  0
VERTEX
  8
0
 10
530999.567304
 20
184128.283082
 30
0.0
  0
VERTEX
  8
0
 10
530999.740451
 20
184153.615831
 30
0.0
  0
VERTEX
  8
0
 10
530994.645003
 20
184176.809192
 30
0.0
  0
VERTEX
  8
0
 10
530996.285770
 20
184181.317901
 30
0.0
  0
VERTEX
  8
0
 10
530993.474204
 20
184197.623234
 30
0.0
  0
VERTEX
  8
0
 10
530990.613168
 20
184230.463834
 30
0.0
  0
VERTEX
  8
0
 10
530984.544803
 20
184251.547798
 30
0.0
  0
VERTEX
  8
0
 10
530984.668479
 20
184256.546367
 30
0.0
  0
VERTEX
  8
0
 10
530980.315087
 20
184272.891689
 30
0.0
  0
VERTEX
  8
0
 10
530980.051245
 20
184286.707734
 30
0.0
  0
VERTEX
  8
0
 10
530985.253878
 20
184286.427814
 30
0.0
  0
VERTEX
  8
0
 10
530988.164385
 20
184274.061354
 30
0.0
  0
VERTEX
  8
0
 10
530997.860577
 20
184250.618064
 30
0.0
  0
VERTEX
  8
0
 10
531010.788833
 20
184197.353311
 30
0.0
  0
VERTEX
  8
0
 10
531033.297849
 20
184202.421860
 30
0.0
  0
VERTEX
  8
0
 10
531050.043568
 20
184209.909717
 30
0.0
  0
VERTEX
  8
0
 10
531063.120235
 20
184211.559245
 30
0.0
  0
VERTEX
  8
0
 10
531064.381730
 20
184213.048819
 30
0.0
  0
VERTEX
  8
0
 10
531054.240305
 20
184249.098499
 30
0.0
  0
VERTEX
  8
0
 10
531052.418146
 20
184249.758311
 30
0.0
  0
VERTEX
  8
0
 10
531045.467560
 20
184247.798871
 30
0.0
  0
VERTEX
  8
0
 10
531043.027021
 20
184248.308725
 30
0.0
  0
VERTEX
  8
0
 10
531039.044657
 20
184260.845137
 30
0.0
  0
VERTEX
  8
0
 10
531037.832633
 20
184261.484954
 30
0.0
  0
VERTEX
  8
0
 10
531023.494472
 20
184258.035941
 30
0.0
  0
VERTEX
  8
0
 10
531013.517948
 20
184270.112484
 30
0.0
  0
VERTEX
  8
0
 10
531009.279986
 20
184272.191889
 30
0.0
  0
VERTEX
  8
0
 10
531012.388374
 20
184286.227871
 30
0.0
  0
VERTEX
  8
0
 10
531014.746462
 20
184288.597193
 30
0.0
  0
VERTEX
  8
0
 10
531030.181216
 20
184292.775997
 30
0.0
  0
VERTEX
  8
0
 10
531046.613623
 20
184281.609193
 30
0.0
  0
VERTEX
  8
0
 10
531049.367473
 20
184281.539213
 30
0.0
  0
VERTEX
  8
0
 10
531056.029483
 20
184284.108478
 30
0.0
  0
VERTEX
  8
0
 10
531059.245057
 20
184283.878544
 30
0.0
  0
VERTEX
  8
0
 10
531065.503058
 20
184264.454104
 30
0.0
  0
VERTEX
  8
0
 10
531075.834120
 20
184266.783437
 30
0.0
  0
VERTEX
  8
0
 10
531077.178065
 20
184265.393835
 30
0.0
  0
VERTEX
  8
0
 10
531080.393638
 20
184265.313858
 30
0.0
  0
VERTEX
  8
0
 10
531152.826500
 20
184286.467803
 30
0.0
  0
SEQEND
  8
0
 62
     7
  0
POLYLINE
  8
0
  6
CONTINUOUS
 62
     7
 70
     1
 75
     5
 66
     1
  0
VERTEX
  8
0
 10
530920.406473
 20
184372.643135
 30
0.0
  0
VERTEX
  8
0
 10
530918.262757
 20
184373.083009
 30
0.0
  0
VERTEX
  8
0
 10
530895.069400
 20
184363.165848
 30
0.0
  0
VERTEX
  8
0
 10
530894.822048
 20
184361.036457
 30
0.0
  0
VERTEX
  8
0
 10
530901.698429
 20
184345.730839
 30
0.0
  0
VERTEX
  8
0
 10
530901.277931
 20
184344.581168
 30
0.0
  0
VERTEX
  8
0
 10
530898.499345
 20
184343.481483
 30
0.0
  0
VERTEX
  8
0
 10
530897.147155
 20
184344.091308
 30
0.0
  0
VERTEX
  8
0
 10
530889.850276
 20
184358.247256
 30
0.0
  0
VERTEX
  8
0
 10
530888.118813
 20
184359.646855
 30
0.0
  0
VERTEX
  8
0
 10
530785.170981
 20
184313.220145
 30
0.0
  0
VERTEX
  8
0
 10
530784.923629
 20
184310.900809
 30
0.0
  0
VERTEX
  8
0
 10
530804.093396
 20
184269.482664
 30
0.0
  0
VERTEX
  8
0
 10
530807.012147
 20
184268.632908
 30
0.0
  0
VERTEX
  8
0
 10
530810.574014
 20
184269.712599
 30
0.0
  0
VERTEX
  8
0
 10
530916.234472
 20
184315.299550
 30
0.0
  0
VERTEX
  8
0
 10
530919.046038
 20
184317.948791
 30
0.0
  0
SEQEND
  8
0
 62
     7
  0
POLYLINE
  8
0
  6
CONTINUOUS
 62
     7
 70
     1
 75
     5
 66
     1
  0
VERTEX
  8
0
 10
530772.020108
 20
184304.812551
 30
0.0
  0
VERTEX
  8
0
 10
530770.066029
 20
184305.242428
 30
0.0
  0
VERTEX
  8
0
 10
530675.841470
 20
184262.294722
 30
0.0
  0
VERTEX
  8
0
 10
530673.458648
 20
184261.195037
 30
0.0
  0
VERTEX
  8
0
 10
530679.494032
 20
184211.749191
 30
0.0
  0
VERTEX
  8
0
 10
530681.027614
 20
184210.539537
 30
0.0
  0
VERTEX
  8
0
 10
530683.995836
 20
184211.439279
 30
0.0
  0
VERTEX
  8
0
 10
530790.291164
 20
184258.555792
 30
0.0
  0
VERTEX
  8
0
 10
530791.717559
 20
184260.855134
 30
0.0
  0
VERTEX
  8
0
 10
530791.569148
 20
184262.794579
 30
0.0
  0
SEQEND
  8
0
 62
     7
  0
POLYLINE
  8
0
  6
CONTINUOUS
 62
     7
 70
     1
 75
     5
 66
     1
  0
VERTEX
  8
0
 10
530918.378188
 20
184298.944231
 30
0.0
  0
VERTEX
  8
0
 10
530913.076613
 20
184298.484363
 30
0.0
  0
VERTEX
  8
0
 10
530810.747160
 20
184253.017378
 30
0.0
  0
VERTEX
  8
0
 10
530810.128781
 20
184251.867707
 30
0.0
  0
VERTEX
  8
0
 10
530811.472725
 20
184195.353884
 30
0.0
  0
VERTEX
  8
0
 10
530812.610544
 20
184193.964281
 30
0.0
  0
VERTEX
  8
0
 10
530815.141778
 20
184193.134519
 30
0.0
  0
VERTEX
  8
0
 10
530827.014666
 20
184189.545546
 30
0.0
  0
VERTEX
  8
0
 10
530840.520076
 20
184180.678085
 30
0.0
  0
VERTEX
  8
0
 10
530849.259840
 20
184169.011424
 30
0.0
  0
VERTEX
  8
0
 10
530855.946585
 20
184154.105691
 30
0.0
  0
VERTEX
  8
0
 10
530857.867684
 20
184136.780650
 30
0.0
  0
VERTEX
  8
0
 10
530858.148016
 20
184132.111986
 30
0.0
  0
VERTEX
  8
0
 10
530860.456633
 20
184130.512444
 30
0.0
  0
VERTEX
  8
0
 10
530911.419356
 20
184129.272799
 30
0.0
  0
VERTEX
  8
0
 10
530913.810424
 20
184130.572427
 30
0.0
  0
VERTEX
  8
0
 10
530918.378188
 20
184298.944231
 30
0.0
  0
SEQEND
  8
0
 62
     7
  0
POLYLINE
  8
0
  6
CONTINUOUS
 62
     7
 70
     1
 75
     5
 66
     1
  0
VERTEX
  8
0
 10
530843.232701
 20
184131.892049
 30
0.0
  0
VERTEX
  8
0
 10
530840.849878
 20
184130.592421
 30
0.0
  0
VERTEX
  8
0
 10
530762.241466
 20
184132.101989
 30
0.0
  0
VERTEX
  8
0
 10
530760.691394
 20
184133.111700
 30
0.0
  0
VERTEX
  8
0
 10
530760.460532
 20
184139.519866
 30
0.0
  0
VERTEX
  8
0
 10
530762.126035
 20
184151.326486
 30
0.0
  0
VERTEX
  8
0
 10
530768.309831
 20
184163.403029
 30
0.0
  0
VERTEX
  8
0
 10
530775.779856
 20
184171.960580
 30
0.0
  0
VERTEX
  8
0
 10
530784.931874
 20
184177.169089
 30
0.0
  0
VERTEX
  8
0
 10
530793.045014
 20
184179.888311
 30
0.0
  0
VERTEX
  8
0
 10
530803.458526
 20
184180.798050
 30
0.0
  0
VERTEX
  8
0
 10
530814.787240
 20
184178.968574
 30
0.0
  0
VERTEX
  8
0
 10
530825.456349
 20
184174.249925
 30
0.0
  0
VERTEX
  8
0
 10
530832.192564
 20
184169.041416
 30
0.0
  0
VERTEX
  8
0
 10
530837.881656
 20
184161.333622
 30
0.0
  0
VERTEX
  8
0
 10
530842.663792
 20
184148.407322
 30
0.0
  0
VERTEX
  8
0
 10
530843.743895
 20
184136.540719
 30
0.0
  0
SEQEND
  8
0
 62
     7
  0
POLYLINE
  8
0
  6
CONTINUOUS
 62
     7
 70
     1
 75
     5
 66
     1
  0
VERTEX
  8
0
 10
530746.196577
 20
184133.661543
 30
0.0
  0
VERTEX
  8
0
 10
530744.382663
 20
184131.762087
 30
0.0
  0
VERTEX
  8
0
 10
530691.828644
 20
184124.294224
 30
0.0
  0
VERTEX
  8
0
 10
530690.484699
 20
184125.493881
 30
0.0
  0
VERTEX
  8
0
 10
530681.794404
 20
184193.834319
 30
0.0
  0
VERTEX
  8
0
 10
530682.239638
 20
184196.153655
 30
0.0
  0
VERTEX
  8
0
 10
530706.034884
 20
184206.640653
 30
0.0
  0
VERTEX
  8
0
 10
530794.083892
 20
184245.659484
 30
0.0
  0
VERTEX
  8
0
 10
530797.233505
 20
184245.969395
 30
0.0
  0
VERTEX
  8
0
 10
530797.563307
 20
184243.630065
 30
0.0
  0
VERTEX
  8
0
 10
530797.794169
 20
184221.306455
 30
0.0
  0
VERTEX
  8
0
 10
530796.211117
 20
184220.566667
 30
0.0
  0
VERTEX
  8
0
 10
530796.821252
 20
184197.843171
 30
0.0
  0
VERTEX
  8
0
 10
530798.165197
 20
184196.843457
 30
0.0
  0
VERTEX
  8
0
 10
530798.132217
 20
184195.483846
 30
0.0
  0
VERTEX
  8
0
 10
530796.145157
 20
184194.364167
 30
0.0
  0
VERTEX
  8
0
 10
530786.110918
 20
184193.054542
 30
0.0
  0
VERTEX
  8
0
 10
530777.404133
 20
184189.965426
 30
0.0
  0
VERTEX
  8
0
 10
530765.844557
 20
184182.487567
 30
0.0
  0
VERTEX
  8
0
 10
530757.764397
 20
184172.970291
 30
0.0
  0
VERTEX
  8
0
 10
530751.423945
 20
184162.453301
 30
0.0
  0
VERTEX
  8
0
 10
530748.447478
 20
184153.405891
 30
0.0
  0
VERTEX
  8
0
 10
530746.650055
 20
184143.938601
 30
0.0
  0
VERTEX
  8
0
 10
530746.196577
 20
184133.661543
 30
0.0
  0
SEQEND
  8
0
 62
     7
  0
POLYLINE
  8
0
  6
CONTINUOUS
 62
     7
 70
     1
 75
     5
 66
     1
  0
VERTEX
  8
0
 10
530935.189867
 20
184115.116851
 30
0.0
  0
VERTEX
  8
0
 10
530994.983050
 20
184113.857212
 30
0.0
  0
VERTEX
  8
0
 10
530996.722758
 20
184112.847501
 30
0.0
  0
VERTEX
  8
0
 10
530996.524877
 20
184065.491056
 30
0.0
  0
VERTEX
  8
0
 10
530997.860577
 20
184063.911509
 30
0.0
  0
VERTEX
  8
0
 10
531008.059717
 20
184064.051469
 30
0.0
  0
VERTEX
  8
0
 10
531008.875978
 20
184065.391085
 30
0.0
  0
VERTEX
  8
0
 10
531009.247006
 20
184111.767810
 30
0.0
  0
VERTEX
  8
0
 10
531011.250556
 20
184113.467323
 30
0.0
  0
VERTEX
  8
0
 10
531049.293268
 20
184113.127421
 30
0.0
  0
VERTEX
  8
0
 10
531050.826849
 20
184111.737818
 30
0.0
  0
VERTEX
  8
0
 10
531063.128480
 20
184038.458794
 30
0.0
  0
VERTEX
  8
0
 10
531062.106093
 20
184036.739287
 30
0.0
  0
VERTEX
  8
0
 10
531060.506551
 20
184035.799556
 30
0.0
  0
VERTEX
  8
0
 10
530994.191525
 20
184034.689873
 30
0.0
  0
VERTEX
  8
0
 10
530973.191354
 20
184034.230005
 30
0.0
  0
VERTEX
  8
0
 10
530932.048499
 20
184035.809553
 30
0.0
  0
VERTEX
  8
0
 10
530929.739882
 20
184037.798983
 30
0.0
  0
VERTEX
  8
0
 10
530932.229890
 20
184114.217109
 30
0.0
  0
VERTEX
  8
0
 10
530935.189867
 20
184115.116851
 30
0.0
  0
SEQEND
  8
0
 62
     7
  0
POLYLINE
  8
0
  6
CONTINUOUS
 62
     7
 70
     1
 75
     5
 66
     1
  0
VERTEX
  8
0
 10
531191.017623
 20
184007.607625
 30
0.0
  0
VERTEX
  8
0
 10
531178.509865
 20
184009.467093
 30
0.0
  0
VERTEX
  8
0
 10
531143.748688
 20
184015.355408
 30
0.0
  0
VERTEX
  8
0
 10
531129.286851
 20
184017.254864
 30
0.0
  0
VERTEX
  8
0
 10
531101.558710
 20
184022.193450
 30
0.0
  0
VERTEX
  8
0
 10
531096.479753
 20
184023.093193
 30
0.0
  0
VERTEX
  8
0
 10
531028.218892
 20
184022.803276
 30
0.0
  0
VERTEX
  8
0
 10
530960.741312
 20
184022.493364
 30
0.0
  0
VERTEX
  8
0
 10
530929.401834
 20
184024.032924
 30
0.0
  0
VERTEX
  8
0
 10
530928.387692
 20
184022.693307
 30
0.0
  0
VERTEX
  8
0
 10
530924.784600
 20
183893.320340
 30
0.0
  0
VERTEX
  8
0
 10
530925.930664
 20
183892.130680
 30
0.0
  0
VERTEX
  8
0
 10
530977.709647
 20
183892.230652
 30
0.0
  0
VERTEX
  8
0
 10
530979.696707
 20
183893.350331
 30
0.0
  0
VERTEX
  8
0
 10
530987.043057
 20
183944.415714
 30
0.0
  0
VERTEX
  8
0
 10
530990.473002
 20
183956.172349
 30
0.0
  0
VERTEX
  8
0
 10
530999.377668
 20
183967.209189
 30
0.0
  0
VERTEX
  8
0
 10
531012.767647
 20
183976.986391
 30
0.0
  0
VERTEX
  8
0
 10
531023.840764
 20
183980.795300
 30
0.0
  0
VERTEX
  8
0
 10
531037.972799
 20
183981.225177
 30
0.0
  0
VERTEX
  8
0
 10
531048.295615
 20
183978.256027
 30
0.0
  0
VERTEX
  8
0
 10
531057.760946
 20
183972.597647
 30
0.0
  0
VERTEX
  8
0
 10
531064.662062
 20
183966.019530
 30
0.0
  0
VERTEX
  8
0
 10
531070.705692
 20
183956.752183
 30
0.0
  0
VERTEX
  8
0
 10
531073.937756
 20
183944.645648
 30
0.0
  0
VERTEX
  8
0
 10
531081.556192
 20
183896.129536
 30
0.0
  0
VERTEX
  8
0
 10
531083.477291
 20
183894.340048
 30
0.0
  0
VERTEX
  8
0
 10
531160.782984
 20
183895.569696
 30
0.0
  0
VERTEX
  8
0
 10
531165.326013
 20
183897.019281
 30
0.0
  0
VERTEX
  8
0
 10
531167.791286
 20
183901.418022
 30
0.0
  0
VERTEX
  8
0
 10
531175.236576
 20
183932.879016
 30
0.0
  0
VERTEX
  8
0
 10
531174.898529
 20
183934.828458
 30
0.0
  0
VERTEX
  8
0
 10
531172.161168
 20
183935.478272
 30
0.0
  0
VERTEX
  8
0
 10
531101.937983
 20
183942.996120
 30
0.0
  0
VERTEX
  8
0
 10
531100.008639
 20
183944.205774
 30
0.0
  0
VERTEX
  8
0
 10
531100.124070
 20
183948.664498
 30
0.0
  0
VERTEX
  8
0
 10
531102.309011
 20
183949.784177
 30
0.0
  0
VERTEX
  8
0
 10
531175.854956
 20
183941.986409
 30
0.0
  0
VERTEX
  8
0
 10
531177.652379
 20
183943.296034
 30
0.0
  0
VERTEX
  8
0
 10
531188.931623
 20
183994.651334
 30
0.0
  0
VERTEX
  8
0
 10
531189.970500
 20
183996.960673
 30
0.0
  0
VERTEX
  8
0
 10
531191.017623
 20
184007.607625
 30
0.0
  0
SEQEND
  8
0
 62
     7
  0
POLYLINE
  8
0
  6
CONTINUOUS
 62
     7
 70
     1
 75
     5
 66
     1
  0
VERTEX
  8
0
 10
531067.382932
 20
183894.140105
 30
0.0
  0
VERTEX
  8
0
 10
530993.606125
 20
183892.820483
 30
0.0
  0
VERTEX
  8
0
 10
530993.045461
 20
183893.610257
 30
0.0
  0
VERTEX
  8
0
 10
530998.248095
 20
183929.390015
 30
0.0
  0
VERTEX
  8
0
 10
531003.648610
 20
183949.444275
 30
0.0
  0
VERTEX
  8
0
 10
531008.950184
 20
183957.661922
 30
0.0
  0
VERTEX
  8
0
 10
531016.568620
 20
183964.270031
 30
0.0
  0
VERTEX
  8
0
 10
531026.660575
 20
183968.108932
 30
0.0
  0
VERTEX
  8
0
 10
531032.959802
 20
183968.928697
 30
0.0
  0
VERTEX
  8
0
 10
531043.117717
 20
183967.129212
 30
0.0
  0
VERTEX
  8
0
 10
531050.851584
 20
183962.670489
 30
0.0
  0
VERTEX
  8
0
 10
531056.392265
 20
183956.712194
 30
0.0
  0
VERTEX
  8
0
 10
531060.152013
 20
183950.413997
 30
0.0
  0
VERTEX
  8
0
 10
531069.419462
 20
183897.009284
 30
0.0
  0
VERTEX
  8
0
 10
531068.768102
 20
183894.500002
 30
0.0
  0
SEQEND
  8
0
 62
     7
  0
POLYLINE
  8
0
  6
CONTINUOUS
 62
     7
 70
     1
 75
     5
 66
     1
  0
VERTEX
  8
0
 10
530971.278500
 20
183878.224661
 30
0.0
  0
VERTEX
  8
0
 10
530969.349155
 20
183879.234372
 30
0.0
  0
VERTEX
  8
0
 10
530924.438308
 20
183879.544283
 30
0.0
  0
VERTEX
  8
0
 10
530922.245121
 20
183878.044712
 30
0.0
  0
VERTEX
  8
0
 10
530915.327515
 20
183678.491834
 30
0.0
  0
VERTEX
  8
0
 10
530916.663215
 20
183677.102232
 30
0.0
  0
VERTEX
  8
0
 10
530939.963758
 20
183675.562672
 30
0.0
  0
VERTEX
  8
0
 10
530950.113428
 20
183673.383296
 30
0.0
  0
VERTEX
  8
0
 10
530999.987802
 20
183644.221644
 30
0.0
  0
VERTEX
  8
0
 10
531007.367132
 20
183641.132528
 30
0.0
  0
VERTEX
  8
0
 10
531057.868131
 20
183613.710377
 30
0.0
  0
VERTEX
  8
0
 10
531092.522123
 20
183595.405617
 30
0.0
  0
VERTEX
  8
0
 10
531095.251238
 20
183594.565857
 30
0.0
  0
VERTEX
  8
0
 10
531097.650551
 20
183596.445319
 30
0.0
  0
VERTEX
  8
0
 10
531106.274885
 20
183651.549546
 30
0.0
  0
VERTEX
  8
0
 10
531106.283130
 20
183659.897157
 30
0.0
  0
VERTEX
  8
0
 10
531109.746056
 20
183680.781179
 30
0.0
  0
VERTEX
  8
0
 10
531131.587223
 20
183825.819662
 30
0.0
  0
VERTEX
  8
0
 10
531139.428276
 20
183880.753937
 30
0.0
  0
VERTEX
  8
0
 10
531138.488339
 20
183882.523430
 30
0.0
  0
VERTEX
  8
0
 10
531082.355963
 20
183880.973874
 30
0.0
  0
VERTEX
  8
0
 10
531081.160429
 20
183880.224089
 30
0.0
  0
VERTEX
  8
0
 10
531081.300595
 20
183854.211535
 30
0.0
  0
VERTEX
  8
0
 10
531080.690461
 20
183853.251809
 30
0.0
  0
VERTEX
  8
0
 10
531068.916513
 20
183852.961892
 30
0.0
  0
VERTEX
  8
0
 10
531067.770450
 20
183854.341497
 30
0.0
  0
VERTEX
  8
0
 10
531068.001312
 20
183879.374332
 30
0.0
  0
VERTEX
  8
0
 10
531066.863493
 20
183880.953880
 30
0.0
  0
VERTEX
  8
0
 10
531036.645344
 20
183880.524003
 30
0.0
  0
VERTEX
  8
0
 10
531034.452158
 20
183879.024432
 30
0.0
  0
VERTEX
  8
0
 10
531034.237786
 20
183854.381486
 30
0.0
  0
VERTEX
  8
0
 10
531033.429770
 20
183853.431758
 30
0.0
  0
VERTEX
  8
0
 10
531023.032748
 20
183853.481744
 30
0.0
  0
VERTEX
  8
0
 10
531022.092811
 20
183855.061291
 30
0.0
  0
VERTEX
  8
0
 10
531022.084566
 20
183878.544569
 30
0.0
  0
VERTEX
  8
0
 10
531021.326021
 20
183879.534286
 30
0.0
  0
VERTEX
  8
0
 10
530987.801602
 20
183879.954166
 30
0.0
  0
VERTEX
  8
0
 10
530985.410534
 20
183878.654538
 30
0.0
  0
VERTEX
  8
0
 10
530985.171428
 20
183853.231815
 30
0.0
  0
VERTEX
  8
0
 10
530983.778012
 20
183852.302081
 30
0.0
  0
VERTEX
  8
0
 10
530972.795591
 20
183852.172118
 30
0.0
  0
VERTEX
  8
0
 10
530971.435156
 20
183852.981887
 30
0.0
  0
VERTEX
  8
0
 10
530971.278500
 20
183878.224661
 30
0.0
  0
SEQEND
  8
0
 62
     7
  0
POLYLINE
  8
0
  6
CONTINUOUS
 62
     7
 70
     1
 75
     5
 66
     1
  0
VERTEX
  8
0
 10
530911.081309
 20
184115.696685
 30
0.0
  0
VERTEX
  8
0
 10
530913.010653
 20
184114.287089
 30
0.0
  0
VERTEX
  8
0
 10
530906.406359
 20
183895.899602
 30
0.0
  0
VERTEX
  8
0
 10
530905.548873
 20
183892.810486
 30
0.0
  0
VERTEX
  8
0
 10
530904.740857
 20
183891.860758
 30
0.0
  0
VERTEX
  8
0
 10
530820.773154
 20
183890.981009
 30
0.0
  0
VERTEX
  8
0
 10
530819.049937
 20
183892.580552
 30
0.0
  0
VERTEX
  8
0
 10
530819.890933
 20
183926.520836
 30
0.0
  0
VERTEX
  8
0
 10
530818.703644
 20
183957.411994
 30
0.0
  0
VERTEX
  8
0
 10
530820.105304
 20
183958.741613
 30
0.0
  0
VERTEX
  8
0
 10
530828.218445
 20
183961.650780
 30
0.0
  0
VERTEX
  8
0
 10
530838.788613
 20
183968.568800
 30
0.0
  0
VERTEX
  8
0
 10
530847.503642
 20
183980.005526
 30
0.0
  0
VERTEX
  8
0
 10
530851.865280
 20
183989.802722
 30
0.0
  0
VERTEX
  8
0
 10
530853.357636
 20
184002.579065
 30
0.0
  0
VERTEX
  8
0
 10
530857.323510
 20
184114.856926
 30
0.0
  0
VERTEX
  8
0
 10
530858.552024
 20
184116.966322
 30
0.0
  0
VERTEX
  8
0
 10
530911.081309
 20
184115.696685
 30
0.0
  0
SEQEND
  8
0
 62
     7
  0
POLYLINE
  8
0
  6
CONTINUOUS
 62
     7
 70
     1
 75
     5
 66
     1
  0
VERTEX
  8
0
 10
530772.275705
 20
184117.696113
 30
0.0
  0
VERTEX
  8
0
 10
530836.603672
 20
184117.696113
 30
0.0
  0
VERTEX
  8
0
 10
530841.451768
 20
184115.246814
 30
0.0
  0
VERTEX
  8
0
 10
530843.719159
 20
184112.087718
 30
0.0
  0
VERTEX
  8
0
 10
530839.843981
 20
183995.531082
 30
0.0
  0
VERTEX
  8
0
 10
530837.288012
 20
183987.243455
 30
0.0
  0
VERTEX
  8
0
 10
530831.821536
 20
183980.385418
 30
0.0
  0
VERTEX
  8
0
 10
530825.002871
 20
183974.337149
 30
0.0
  0
VERTEX
  8
0
 10
530817.879138
 20
183971.597933
 30
0.0
  0
VERTEX
  8
0
 10
530809.798978
 20
183970.048377
 30
0.0
  0
VERTEX
  8
0
 10
530802.551569
 20
183970.618214
 30
0.0
  0
VERTEX
  8
0
 10
530792.253488
 20
183974.547089
 30
0.0
  0
VERTEX
  8
0
 10
530785.344127
 20
183980.545372
 30
0.0
  0
VERTEX
  8
0
 10
530780.256924
 20
183988.813005
 30
0.0
  0
VERTEX
  8
0
 10
530777.461848
 20
184002.858985
 30
0.0
  0
VERTEX
  8
0
 10
530764.525348
 20
184097.891782
 30
0.0
  0
VERTEX
  8
0
 10
530764.838660
 20
184110.308228
 30
0.0
  0
VERTEX
  8
0
 10
530766.718534
 20
184114.916908
 30
0.0
  0
VERTEX
  8
0
 10
530772.275705
 20
184117.696113
 30
0.0
  0
SEQEND
  8
0
 62
     7
  0
POLYLINE
  8
0
  6
CONTINUOUS
 62
     7
 70
     1
 75
     5
 66
     1
  0
VERTEX
  8
0
 10
530745.998695
 20
184118.925761
 30
0.0
  0
VERTEX
  8
0
 10
530697.872274
 20
184112.367638
 30
0.0
  0
VERTEX
  8
0
 10
530692.034770
 20
184111.527879
 30
0.0
  0
VERTEX
  8
0
 10
530690.443474
 20
184110.438191
 30
0.0
  0
VERTEX
  8
0
 10
530690.229102
 20
184107.219112
 30
0.0
  0
VERTEX
  8
0
 10
530703.396465
 20
184014.775574
 30
0.0
  0
VERTEX
  8
0
 10
530718.938405
 20
183891.950732
 30
0.0
  0
VERTEX
  8
0
 10
530721.444903
 20
183890.201233
 30
0.0
  0
VERTEX
  8
0
 10
530803.763593
 20
183890.741078
 30
0.0
  0
VERTEX
  8
0
 10
530805.783633
 20
183892.380609
 30
0.0
  0
VERTEX
  8
0
 10
530806.146416
 20
183918.343177
 30
0.0
  0
VERTEX
  8
0
 10
530804.381973
 20
183955.882432
 30
0.0
  0
VERTEX
  8
0
 10
530803.153459
 20
183957.741899
 30
0.0
  0
VERTEX
  8
0
 10
530792.434879
 20
183960.521104
 30
0.0
  0
VERTEX
  8
0
 10
530784.313494
 20
183964.649922
 30
0.0
  0
VERTEX
  8
0
 10
530776.925919
 20
183970.168342
 30
0.0
  0
VERTEX
  8
0
 10
530770.997721
 20
183977.196331
 30
0.0
  0
VERTEX
  8
0
 10
530766.017704
 20
183987.983243
 30
0.0
  0
VERTEX
  8
0
 10
530763.272098
 20
184003.078922
 30
0.0
  0
VERTEX
  8
0
 10
530758.052975
 20
184044.347109
 30
0.0
  0
VERTEX
  8
0
 10
530748.513439
 20
184117.326219
 30
0.0
  0
VERTEX
  8
0
 10
530747.548767
 20
184118.605853
 30
0.0
  0
VERTEX
  8
0
 10
530745.998695
 20
184118.925761
 30
0.0
  0
SEQEND
  8
0
 62
     7
  0
POLYLINE
  8
0
  6
CONTINUOUS
 62
     7
 70
     1
 75
     5
 66
     1
  0
VERTEX
  8
0
 10
530803.879024
 20
183875.645399
 30
0.0
  0
VERTEX
  8
0
 10
530800.721166
 20
183876.245228
 30
0.0
  0
VERTEX
  8
0
 10
530720.439006
 20
183874.785645
 30
0.0
  0
VERTEX
  8
0
 10
530718.303535
 20
183874.045857
 30
0.0
  0
VERTEX
  8
0
 10
530717.973733
 20
183871.696530
 30
0.0
  0
VERTEX
  8
0
 10
530730.737087
 20
183777.563475
 30
0.0
  0
VERTEX
  8
0
 10
530731.949111
 20
183762.587762
 30
0.0
  0
VERTEX
  8
0
 10
530733.251831
 20
183729.537222
 30
0.0
  0
VERTEX
  8
0
 10
530729.228241
 20
183695.566946
 30
0.0
  0
VERTEX
  8
0
 10
530730.250629
 20
183693.967404
 30
0.0
  0
VERTEX
  8
0
 10
530733.408487
 20
183693.367576
 30
0.0
  0
VERTEX
  8
0
 10
530795.798864
 20
183688.708909
 30
0.0
  0
VERTEX
  8
0
 10
530797.678738
 20
183689.978546
 30
0.0
  0
VERTEX
  8
0
 10
530798.280628
 20
183703.324726
 30
0.0
  0
VERTEX
  8
0
 10
530804.637570
 20
183874.055854
 30
0.0
  0
SEQEND
  8
0
 62
     7
  0
POLYLINE
  8
0
  6
CONTINUOUS
 62
     7
 70
     1
 75
     5
 66
     1
  0
VERTEX
  8
0
 10
531169.720630
 20
183879.904180
 30
0.0
  0
VERTEX
  8
0
 10
531168.170559
 20
183881.253794
 30
0.0
  0
VERTEX
  8
0
 10
531160.486162
 20
183881.173817
 30
0.0
  0
VERTEX
  8
0
 10
531158.589798
 20
183879.654252
 30
0.0
  0
VERTEX
  8
0
 10
531133.483587
 20
183711.212468
 30
0.0
  0
VERTEX
  8
0
 10
531114.940444
 20
183582.969177
 30
0.0
  0
VERTEX
  8
0
 10
531116.234919
 20
183581.629560
 30
0.0
  0
VERTEX
  8
0
 10
531200.639609
 20
183536.082598
 30
0.0
  0
VERTEX
  8
0
 10
531202.222661
 20
183535.782684
 30
0.0
  0
VERTEX
  8
0
 10
531203.343989
 20
183538.112017
 30
0.0
  0
VERTEX
  8
0
 10
531192.897497
 20
183576.111140
 30
0.0
  0
VERTEX
  8
0
 10
531190.671331
 20
183582.449326
 30
0.0
  0
VERTEX
  8
0
 10
531187.835030
 20
183606.892329
 30
0.0
  0
VERTEX
  8
0
 10
531187.323836
 20
183618.179098
 30
0.0
  0
VERTEX
  8
0
 10
531180.876198
 20
183667.864876
 30
0.0
  0
VERTEX
  8
0
 10
531180.859708
 20
183677.832023
 30
0.0
  0
VERTEX
  8
0
 10
531180.678317
 20
183734.705743
 30
0.0
  0
SEQEND
  8
0
 62
     7
  0
POLYLINE
  8
0
  6
CONTINUOUS
 62
     7
 70
     1
 75
     5
 66
     1
  0
VERTEX
  8
0
 10
531188.832682
 20
183881.543711
 30
0.0
  0
VERTEX
  8
0
 10
531187.991686
 20
183879.724232
 30
0.0
  0
VERTEX
  8
0
 10
531195.610122
 20
183760.028494
 30
0.0
  0
VERTEX
  8
0
 10
531197.151949
 20
183758.159029
 30
0.0
  0
VERTEX
  8
0
 10
531264.101845
 20
183756.009645
 30
0.0
  0
VERTEX
  8
0
 10
531265.454035
 20
183757.029353
 30
0.0
  0
VERTEX
  8
0
 10
531266.163110
 20
183775.094182
 30
0.0
  0
VERTEX
  8
0
 10
531270.780344
 20
183779.702863
 30
0.0
  0
VERTEX
  8
0
 10
531293.808800
 20
183779.143023
 30
0.0
  0
VERTEX
  8
0
 10
531295.152745
 20
183779.902805
 30
0.0
  0
VERTEX
  8
0
 10
531300.149252
 20
183895.619682
 30
0.0
  0
VERTEX
  8
0
 10
531298.854777
 20
183896.959298
 30
0.0
  0
VERTEX
  8
0
 10
531253.416246
 20
183890.991007
 30
0.0
  0
VERTEX
  8
0
 10
531248.881462
 20
183889.521427
 30
0.0
  0
VERTEX
  8
0
 10
531249.376166
 20
183877.454881
 30
0.0
  0
VERTEX
  8
0
 10
531247.496292
 20
183876.455167
 30
0.0
  0
VERTEX
  8
0
 10
531237.429072
 20
183876.175248
 30
0.0
  0
VERTEX
  8
0
 10
531235.351317
 20
183878.054710
 30
0.0
  0
VERTEX
  8
0
 10
531235.565688
 20
183886.442309
 30
0.0
  0
VERTEX
  8
0
 10
531233.479688
 20
183887.801919
 30
0.0
  0
SEQEND
  8
0
 62
     7
  0
POLYLINE
  8
0
  6
CONTINUOUS
 62
     7
 70
     1
 75
     5
 66
     1
  0
VERTEX
  8
0
 10
531337.458153
 20
183777.303549
 30
0.0
  0
VERTEX
  8
0
 10
531315.765398
 20
183778.093323
 30
0.0
  0
VERTEX
  8
0
 10
531313.687642
 20
183779.712860
 30
0.0
  0
VERTEX
  8
0
 10
531318.238916
 20
183898.858754
 30
0.0
  0
VERTEX
  8
0
 10
531320.382632
 20
183900.108397
 30
0.0
  0
VERTEX
  8
0
 10
531380.192305
 20
183908.885884
 30
0.0
  0
VERTEX
  8
0
 10
531383.886092
 20
183908.276059
 30
0.0
  0
VERTEX
  8
0
 10
531379.252368
 20
183753.750291
 30
0.0
  0
VERTEX
  8
0
 10
531377.858953
 20
183752.220729
 30
0.0
  0
VERTEX
  8
0
 10
531340.574786
 20
183753.380397
 30
0.0
  0
VERTEX
  8
0
 10
531337.054145
 20
183755.549776
 30
0.0
  0
SEQEND
  8
0
 62
     7
  0
POLYLINE
  8
0
  6
CONTINUOUS
 62
     7
 70
     1
 75
     5
 66
     1
  0
VERTEX
  8
0
 10
531324.257811
 20
183757.439235
 30
0.0
  0
VERTEX
  8
0
 10
531317.554576
 20
183764.947086
 30
0.0
  0
VERTEX
  8
0
 10
531285.539004
 20
183765.976792
 30
0.0
  0
VERTEX
  8
0
 10
531281.771011
 20
183763.447516
 30
0.0
  0
VERTEX
  8
0
 10
531279.866402
 20
183761.658028
 30
0.0
  0
VERTEX
  8
0
 10
531279.940607
 20
183732.566355
 30
0.0
  0
VERTEX
  8
0
 10
531282.785153
 20
183729.617199
 30
0.0
  0
VERTEX
  8
0
 10
531285.646189
 20
183727.707746
 30
0.0
  0
VERTEX
  8
0
 10
531314.808971
 20
183727.247878
 30
0.0
  0
VERTEX
  8
0
 10
531320.390877
 20
183729.757159
 30
0.0
  0
VERTEX
  8
0
 10
531323.408569
 20
183733.875980
 30
0.0
  0
SEQEND
  8
0
 62
     7
  0
POLYLINE
  8
0
  6
CONTINUOUS
 62
     7
 70
     1
 75
     5
 66
     1
  0
VERTEX
  8
0
 10
531337.524114
 20
183735.945388
 30
0.0
  0
VERTEX
  8
0
 10
531374.016754
 20
183735.005657
 30
0.0
  0
VERTEX
  8
0
 10
531378.131040
 20
183732.696318
 30
0.0
  0
VERTEX
  8
0
 10
531370.693995
 20
183579.930047
 30
0.0
  0
VERTEX
  8
0
 10
531368.261702
 20
183577.890631
 30
0.0
  0
VERTEX
  8
0
 10
531351.524228
 20
183575.681263
 30
0.0
  0
VERTEX
  8
0
 10
531339.807996
 20
183573.082007
 30
0.0
  0
VERTEX
  8
0
 10
531310.472068
 20
183564.874357
 30
0.0
  0
VERTEX
  8
0
 10
531304.626320
 20
183564.234540
 30
0.0
  0
VERTEX
  8
0
 10
531303.595687
 20
183565.304233
 30
0.0
  0
VERTEX
  8
0
 10
531309.565112
 20
183709.832863
 30
0.0
  0
VERTEX
  8
0
 10
531310.983262
 20
183713.471821
 30
0.0
  0
VERTEX
  8
0
 10
531314.693540
 20
183713.641772
 30
0.0
  0
VERTEX
  8
0
 10
531333.220192
 20
183713.191901
 30
0.0
  0
VERTEX
  8
0
 10
531334.836224
 20
183714.201612
 30
0.0
  0
VERTEX
  8
0
 10
531335.982287
 20
183733.706029
 30
0.0
  0
VERTEX
  8
0
 10
531336.287355
 20
183735.395545
 30
0.0
  0
SEQEND
  8
0
 62
     7
  0
POLYLINE
  8
0
  6
CONTINUOUS
 62
     7
 70
     1
 75
     5
 66
     1
  0
VERTEX
  8
0
 10
531292.044357
 20
183713.931689
 30
0.0
  0
VERTEX
  8
0
 10
531290.774617
 20
183714.561509
 30
0.0
  0
VERTEX
  8
0
 10
531268.694344
 20
183716.051083
 30
0.0
  0
VERTEX
  8
0
 10
531264.085355
 20
183721.109635
 30
0.0
  0
VERTEX
  8
0
 10
531264.481118
 20
183737.235019
 30
0.0
  0
VERTEX
  8
0
 10
531263.483465
 20
183739.344415
 30
0.0
  0
VERTEX
  8
0
 10
531198.833941
 20
183741.163894
 30
0.0
  0
VERTEX
  8
0
 10
531197.242644
 20
183740.684032
 30
0.0
  0
VERTEX
  8
0
 10
531197.151949
 20
183737.045073
 30
0.0
  0
VERTEX
  8
0
 10
531202.783325
 20
183667.415005
 30
0.0
  0
VERTEX
  8
0
 10
531207.103737
 20
183618.898892
 30
0.0
  0
VERTEX
  8
0
 10
531209.882323
 20
183593.066287
 30
0.0
  0
VERTEX
  8
0
 10
531219.413614
 20
183542.600732
 30
0.0
  0
VERTEX
  8
0
 10
531221.746966
 20
183541.501047
 30
0.0
  0
VERTEX
  8
0
 10
531283.436513
 20
183557.966334
 30
0.0
  0
VERTEX
  8
0
 10
531286.116158
 20
183559.985756
 30
0.0
  0
VERTEX
  8
0
 10
531291.994886
 20
183711.842287
 30
0.0
  0
VERTEX
  8
0
 10
531292.044357
 20
183713.931689
 30
0.0
  0
SEQEND
  8
0
 62
     7
  0
POLYLINE
  8
0
  6
CONTINUOUS
 62
     7
 70
     1
 75
     5
 66
     1
  0
VERTEX
  8
0
 10
530898.045867
 20
183736.715168
 30
0.0
  0
VERTEX
  8
0
 10
530896.941029
 20
183738.444673
 30
0.0
  0
VERTEX
  8
0
 10
530864.488468
 20
183739.374406
 30
0.0
  0
VERTEX
  8
0
 10
530833.445813
 20
183739.134475
 30
0.0
  0
VERTEX
  8
0
 10
530814.102900
 20
183738.044787
 30
0.0
  0
VERTEX
  8
0
 10
530813.080512
 20
183708.613212
 30
0.0
  0
VERTEX
  8
0
 10
530812.519848
 20
183685.839731
 30
0.0
  0
VERTEX
  8
0
 10
530813.913264
 20
183684.530105
 30
0.0
  0
VERTEX
  8
0
 10
530898.317954
 20
183678.521825
 30
0.0
  0
VERTEX
  8
0
 10
530899.060010
 20
183679.781465
 30
0.0
  0
VERTEX
  8
0
 10
530899.323852
 20
183718.990241
 30
0.0
  0
VERTEX
  8
0
 10
530897.369772
 20
183721.159620
 30
0.0
  0
SEQEND
  8
0
 62
     7
  0
POLYLINE
  8
0
  6
CONTINUOUS
 62
     7
 66
     1
  0
VERTEX
  8
0
 10
531338.925774
 20
184573.275705
 30
0.0
  0
VERTEX
  8
0
 10
531342.306249
 20
184563.228581
 30
0.0
  0
VERTEX
  8
0
 10
531363.751653
 20
184570.076620
 30
0.0
  0
VERTEX
  8
0
 10
531398.751938
 20
184571.366251
 30
0.0
  0
VERTEX
  8
0
 10
531398.578791
 20
184558.829840
 30
0.0
  0
VERTEX
  8
0
 10
531368.764650
 20
184556.480512
 30
0.0
  0
VERTEX
  8
0
 10
531349.100180
 20
184549.672461
 30
0.0
  0
VERTEX
  8
0
 10
531363.471321
 20
184511.423410
 30
0.0
  0
VERTEX
  8
0
 10
531387.340773
 20
184442.123247
 30
0.0
  0
VERTEX
  8
0
 10
531407.846240
 20
184359.896784
 30
0.0
  0
VERTEX
  8
0
 10
531410.641316
 20
184357.007611
 30
0.0
  0
VERTEX
  8
0
 10
531415.761499
 20
184355.508040
 30
0.0
  0
VERTEX
  8
0
 10
531449.574494
 20
184364.875359
 30
0.0
  0
VERTEX
  8
0
 10
531453.095135
 20
184350.659428
 30
0.0
  0
VERTEX
  8
0
 10
531422.143176
 20
184342.441780
 30
0.0
  0
VERTEX
  8
0
 10
531414.838052
 20
184339.712561
 30
0.0
  0
VERTEX
  8
0
 10
531453.358977
 20
184148.647253
 30
0.0
  0
VERTEX
  8
0
 10
531445.270572
 20
184127.803220
 30
0.0
  0
VERTEX
  8
0
 10
531441.098571
 20
184120.765234
 30
0.0
  0
VERTEX
  8
0
 10
531415.761499
 20
183991.102350
 30
0.0
  0
VERTEX
  8
0
 10
531405.826200
 20
183938.127514
 30
0.0
  0
VERTEX
  8
0
 10
531402.849733
 20
183905.836757
 30
0.0
  0
VERTEX
  8
0
 10
531397.358522
 20
183772.135029
 30
0.0
  0
VERTEX
  8
0
 10
531390.638797
 20
183617.129399
 30
0.0
  0
VERTEX
  8
0
 10
531389.014520
 20
183601.703814
 30
0.0
  0
VERTEX
  8
0
 10
531387.769516
 20
183575.601286
 30
0.0
  0
VERTEX
  8
0
 10
531389.649390
 20
183531.333957
 30
0.0
  0
VERTEX
  8
0
 10
531390.597572
 20
183509.820116
 30
0.0
  0
VERTEX
  8
0
 10
531365.911859
 20
183506.651023
 30
0.0
  0
VERTEX
  8
0
 10
531367.156863
 20
183558.866076
 30
0.0
  0
VERTEX
  8
0
 10
531361.533732
 20
183562.684983
 30
0.0
  0
VERTEX
  8
0
 10
531347.698519
 20
183561.835226
 30
0.0
  0
VERTEX
  8
0
 10
531227.584469
 20
183526.915222
 30
0.0
  0
VERTEX
  8
0
 10
531226.298240
 20
183523.566181
 30
0.0
  0
VERTEX
  8
0
 10
531235.821285
 20
183494.094617
 30
0.0
  0
VERTEX
  8
0
 10
531220.501962
 20
183488.476225
 30
0.0
  0
VERTEX
  8
0
 10
531216.907115
 20
183498.123464
 30
0.0
  0
VERTEX
  8
0
 10
531214.614988
 20
183500.212866
 30
0.0
  0
VERTEX
  8
0
 10
531212.124980
 20
183499.523063
 30
0.0
  0
VERTEX
  8
0
 10
531205.998899
 20
183490.655601
 30
0.0
  0
VERTEX
  8
0
 10
531194.587735
 20
183498.643315
 30
0.0
  0
VERTEX
  8
0
 10
531204.160251
 20
183511.819543
 30
0.0
  0
VERTEX
  8
0
 10
531203.500646
 20
183515.568470
 30
0.0
  0
VERTEX
  8
0
 10
531114.470476
 20
183564.034597
 30
0.0
  0
VERTEX
  8
0
 10
531110.512847
 20
183559.295953
 30
0.0
  0
VERTEX
  8
0
 10
531101.690631
 20
183497.423664
 30
0.0
  0
VERTEX
  8
0
 10
531082.628050
 20
183503.401953
 30
0.0
  0
VERTEX
  8
0
 10
531093.338384
 20
183573.951758
 30
0.0
  0
VERTEX
  8
0
 10
531090.724700
 20
183577.370779
 30
0.0
  0
VERTEX
  8
0
 10
531000.441281
 20
183624.787207
 30
0.0
  0
VERTEX
  8
0
 10
530984.808645
 20
183634.984288
 30
0.0
  0
VERTEX
  8
0
 10
530943.847181
 20
183659.777191
 30
0.0
  0
VERTEX
  8
0
 10
530924.199201
 20
183662.476418
 30
0.0
  0
VERTEX
  8
0
 10
530727.158731
 20
183678.781751
 30
0.0
  0
VERTEX
  8
0
 10
530723.737030
 20
183674.922855
 30
0.0
  0
VERTEX
  8
0
 10
530711.905368
 20
183573.831792
 30
0.0
  0
VERTEX
  8
0
 10
530697.748598
 20
183575.651272
 30
0.0
  0
VERTEX
  8
0
 10
530709.110292
 20
183668.044824
 30
0.0
  0
VERTEX
  8
0
 10
530711.451889
 20
183709.762883
 30
0.0
  0
VERTEX
  8
0
 10
530714.304680
 20
183724.468673
 30
0.0
  0
VERTEX
  8
0
 10
530715.681606
 20
183747.182171
 30
0.0
  0
VERTEX
  8
0
 10
530714.024348
 20
183781.682296
 30
0.0
  0
VERTEX
  8
0
 10
530710.256355
 20
183804.305820
 30
0.0
  0
VERTEX
  8
0
 10
530706.958331
 20
183822.830517
 30
0.0
  0
VERTEX
  8
0
 10
530702.349342
 20
183861.809360
 30
0.0
  0
VERTEX
  8
0
 10
530698.853436
 20
183864.888478
 30
0.0
  0
VERTEX
  8
0
 10
530692.826296
 20
183864.808501
 30
0.0
  0
VERTEX
  8
0
 10
530671.883841
 20
183862.819071
 30
0.0
  0
VERTEX
  8
0
 10
530669.064030
 20
183864.288650
 30
0.0
  0
VERTEX
  8
0
 10
530666.813128
 20
183881.373760
 30
0.0
  0
VERTEX
  8
0
 10
530670.746023
 20
183883.623116
 30
0.0
  0
VERTEX
  8
0
 10
530696.676740
 20
183887.312060
 30
0.0
  0
VERTEX
  8
0
 10
530697.600187
 20
183890.141250
 30
0.0
  0
VERTEX
  8
0
 10
530681.233740
 20
184016.185170
 30
0.0
  0
VERTEX
  8
0
 10
530669.319627
 20
184117.466179
 30
0.0
  0
VERTEX
  8
0
 10
530667.431508
 20
184121.585000
 30
0.0
  0
VERTEX
  8
0
 10
530636.891802
 20
184117.796084
 30
0.0
  0
VERTEX
  8
0
 10
530635.143849
 20
184119.775518
 30
0.0
  0
VERTEX
  8
0
 10
530633.841129
 20
184127.963174
 30
0.0
  0
VERTEX
  8
0
 10
530636.190972
 20
184131.302218
 30
0.0
  0
VERTEX
  8
0
 10
530665.848456
 20
184135.461028
 30
0.0
  0
VERTEX
  8
0
 10
530666.607002
 20
184139.179963
 30
0.0
  0
VERTEX
  8
0
 10
530659.359593
 20
184192.774622
 30
0.0
  0
VERTEX
  8
0
 10
530652.441987
 20
184244.409842
 30
0.0
  0
VERTEX
  8
0
 10
530628.333428
 20
184433.145816
 30
0.0
  0
VERTEX
  8
0
 10
530624.252123
 20
184465.106668
 30
0.0
  0
VERTEX
  8
0
 10
530624.837522
 20
184467.406010
 30
0.0
  0
VERTEX
  8
0
 10
530641.410095
 20
184470.675074
 30
0.0
  0
VERTEX
  8
0
 10
530642.828246
 20
184469.515406
 30
0.0
  0
VERTEX
  8
0
 10
530649.160453
 20
184430.906457
 30
0.0
  0
VERTEX
  8
0
 10
530671.702450
 20
184279.109909
 30
0.0
  0
VERTEX
  8
0
 10
530675.404482
 20
184277.630332
 30
0.0
  0
VERTEX
  8
0
 10
530921.041342
 20
184388.418619
 30
0.0
  0
VERTEX
  8
0
 10
530925.642087
 20
184390.687970
 30
0.0
  0
VERTEX
  8
0
 10
530926.210996
 20
184393.777086
 30
0.0
  0
VERTEX
  8
0
 10
530909.613688
 20
184430.876466
 30
0.0
  0
VERTEX
  8
0
 10
530909.209680
 20
184432.695945
 30
0.0
  0
VERTEX
  8
0
 10
530925.353509
 20
184439.693942
 30
0.0
  0
VERTEX
  8
0
 10
530942.767078
 20
184399.795363
 30
0.0
  0
VERTEX
  8
0
 10
530947.334842
 20
184399.945320
 30
0.0
  0
VERTEX
  8
0
 10
531067.242766
 20
184443.002995
 30
0.0
  0
VERTEX
  8
0
 10
531082.792951
 20
184451.310617
 30
0.0
  0
VERTEX
  8
0
 10
531142.116166
 20
184474.354021
 30
0.0
  0
VERTEX
  8
0
 10
531237.684669
 20
184515.512239
 30
0.0
  0
VERTEX
  8
0
 10
531253.581147
 20
184524.509664
 30
0.0
  0
VERTEX
  8
0
 10
531285.679170
 20
184538.755586
 30
0.0
  0
VERTEX
  8
0
 10
531315.064567
 20
184549.312564
 30
0.0
  0
VERTEX
  8
0
 10
531318.280141
 20
184551.182029
 30
0.0
  0
VERTEX
  8
0
 10
531330.186009
 20
184553.521359
 30
0.0
  0
VERTEX
  8
0
 10
531330.054088
 20
184556.540495
 30
0.0
  0
VERTEX
  8
0
 10
531321.132932
 20
184578.004351
 30
0.0
  0
VERTEX
  8
0
 10
531321.363794
 20
184583.412803
 30
0.0
  0
VERTEX
  8
0
 10
531331.125946
 20
184588.331395
 30
0.0
  0
VERTEX
  8
0
 10
531334.184864
 20
184586.311973
 30
0.0
  0
VERTEX
  8
0
 10
531338.925774
 20
184573.275705
 30
0.0
  0
SEQEND
  8
0
 62
     7
  0
POLYLINE
  8
0
  6
CONTINUOUS
 62
     7
 70
     1
 75
     5
 66
     1
  0
VERTEX
  8
0
 10
531426.298687
 20
184120.625274
 30
0.0
  0
VERTEX
  8
0
 10
531424.987722
 20
184121.435043
 30
0.0
  0
VERTEX
  8
0
 10
531421.640227
 20
184120.965177
 30
0.0
  0
VERTEX
  8
0
 10
531366.035535
 20
184106.249390
 30
0.0
  0
VERTEX
  8
0
 10
531364.559669
 20
184104.959759
 30
0.0
  0
VERTEX
  8
0
 10
531371.312374
 20
184050.235423
 30
0.0
  0
VERTEX
  8
0
 10
531372.615094
 20
184049.215715
 30
0.0
  0
VERTEX
  8
0
 10
531389.649390
 20
184050.125455
 30
0.0
  0
VERTEX
  8
0
 10
531390.490386
 20
184048.345964
 30
0.0
  0
VERTEX
  8
0
 10
531390.498631
 20
184044.057192
 30
0.0
  0
VERTEX
  8
0
 10
531410.954628
 20
184039.818405
 30
0.0
  0
VERTEX
  8
0
 10
531426.273952
 20
184119.525589
 30
0.0
  0
SEQEND
  8
0
 62
     7
  0
POLYLINE
  8
0
  6
CONTINUOUS
 62
     7
 70
     1
 75
     5
 66
     1
  0
VERTEX
  8
0
 10
531409.346841
 20
184033.260282
 30
0.0
  0
VERTEX
  8
0
 10
531388.989785
 20
184036.939229
 30
0.0
  0
VERTEX
  8
0
 10
531386.829579
 20
184030.501072
 30
0.0
  0
VERTEX
  8
0
 10
531367.156863
 20
184030.651029
 30
0.0
  0
VERTEX
  8
0
 10
531359.340546
 20
184087.374792
 30
0.0
  0
VERTEX
  8
0
 10
531358.153257
 20
184088.944343
 30
0.0
  0
VERTEX
  8
0
 10
531356.495999
 20
184089.204269
 30
0.0
  0
VERTEX
  8
0
 10
531290.766372
 20
184078.807245
 30
0.0
  0
VERTEX
  8
0
 10
531289.628554
 20
184077.737551
 30
0.0
  0
VERTEX
  8
0
 10
531290.180973
 20
184072.988910
 30
0.0
  0
VERTEX
  8
0
 10
531297.024374
 20
184035.319693
 30
0.0
  0
VERTEX
  8
0
 10
531297.980801
 20
184033.640174
 30
0.0
  0
VERTEX
  8
0
 10
531299.868920
 20
184033.380248
 30
0.0
  0
VERTEX
  8
0
 10
531321.421510
 20
184037.479075
 30
0.0
  0
VERTEX
  8
0
 10
531322.394427
 20
184036.459367
 30
0.0
  0
VERTEX
  8
0
 10
531335.025860
 20
183963.340297
 30
0.0
  0
VERTEX
  8
0
 10
531334.522912
 20
183960.711049
 30
0.0
  0
VERTEX
  8
0
 10
531312.310717
 20
183956.962123
 30
0.0
  0
VERTEX
  8
0
 10
531310.505049
 20
183956.122363
 30
0.0
  0
VERTEX
  8
0
 10
531310.109286
 20
183953.603084
 30
0.0
  0
VERTEX
  8
0
 10
531316.919706
 20
183914.384310
 30
0.0
  0
VERTEX
  8
0
 10
531318.667659
 20
183913.354605
 30
0.0
  0
VERTEX
  8
0
 10
531321.891478
 20
183913.274628
 30
0.0
  0
VERTEX
  8
0
 10
531384.265365
 20
183922.771909
 30
0.0
  0
VERTEX
  8
0
 10
531386.977990
 20
183924.791331
 30
0.0
  0
VERTEX
  8
0
 10
531388.288955
 20
183928.280333
 30
0.0
  0
VERTEX
  8
0
 10
531409.346841
 20
184033.260282
 30
0.0
  0
SEQEND
  8
0
 62
     7
  0
POLYLINE
  8
0
  6
CONTINUOUS
 62
     7
 70
     1
 75
     5
 66
     1
  0
VERTEX
  8
0
 10
530906.093047
 20
183875.695385
 30
0.0
  0
VERTEX
  8
0
 10
530904.641916
 20
183877.204953
 30
0.0
  0
VERTEX
  8
0
 10
530821.523455
 20
183876.455167
 30
0.0
  0
VERTEX
  8
0
 10
530819.429209
 20
183874.485731
 30
0.0
  0
VERTEX
  8
0
 10
530818.266656
 20
183820.231261
 30
0.0
  0
VERTEX
  8
0
 10
530819.544640
 20
183819.471479
 30
0.0
  0
VERTEX
  8
0
 10
530902.663101
 20
183819.851370
 30
0.0
  0
VERTEX
  8
0
 10
530904.542975
 20
183820.911067
 30
0.0
  0
SEQEND
  8
0
 62
     7
  0
POLYLINE
  8
0
  6
CONTINUOUS
 62
     7
 70
     1
 75
     5
 66
     1
  0
VERTEX
  8
0
 10
530817.079367
 20
183809.964200
 30
0.0
  0
VERTEX
  8
0
 10
530818.769605
 20
183810.474054
 30
0.0
  0
VERTEX
  8
0
 10
530902.423994
 20
183810.474054
 30
0.0
  0
VERTEX
  8
0
 10
530903.710224
 20
183809.704275
 30
0.0
  0
VERTEX
  8
0
 10
530901.665449
 20
183749.771430
 30
0.0
  0
VERTEX
  8
0
 10
530900.305014
 20
183747.412106
 30
0.0
  0
VERTEX
  8
0
 10
530899.183685
 20
183747.262149
 30
0.0
  0
VERTEX
  8
0
 10
530816.065225
 20
183746.512363
 30
0.0
  0
VERTEX
  8
0
 10
530814.614094
 20
183748.021931
 30
0.0
  0
SEQEND
  8
0
 62
     7
  0
ENDSEC
  0
EOF
