  0
SECTION
  2
HEADER
  9
$ACADVER
  1
AC1009
  9
$EXTMIN
 10
530635.646797
 20
183499.852969
 30
0.0
  9
$EXTMAX
 10
531446.820644
 20
184583.962646
 30
0.0
  9
$LIMMIN
 10
530595.088105
 20
183445.647485
  9
$LIMMAX
 10
531487.379336
 20
184638.168129
  0
ENDSEC
  0
SECTION
  2
TABLES
  0
TABLE
  2
LTYPE
 70
     3
  0
LTYPE
  2
CONTINUOUS
 70
     0
  3
Solid Line
 72
    65
 73
     0
 40
0.0
  0
LTYPE
  2
DASHED
 70
     0
  3
_ _ _ _ _
 72
    65
 73
     2
 40
0.75
 49
0.5
 49
-0.25
  0
LTYPE
  2
DOT
 70
     0
  3
. . . . .
 72
    65
 73
     2
 40
1.0
 49
0.0
 49
-1.0
  0
ENDTAB
  0
ENDSEC
  0
SECTION
  2
BLOCKS
  0
ENDSEC
  0
SECTION
  2
ENTITIES
  0
LINE
  8
0
  6
CONTINUOUS
 62
     7
 10
530635.696268
 20
184468.675646
 30
0.0
 11
530732.377854
 21
183731.866556
 31
0.0
  0
LINE
  8
0
  6
CONTINUOUS
 62
     7
 10
530655.080407
 20
184267.843134
 30
0.0
 11
531386.664678
 21
184568.766995
 31
0.0
  0
LINE
  8
0
  6
CONTINUOUS
 62
     7
 10
530781.419478
 20
184322.997346
 30
0.0
 11
530814.787240
 21
184178.968574
 31
0.0
  0
LINE
  8
0
  6
CONTINUOUS
 62
     7
 10
531124.686107
 20
184392.857349
 30
0.0
 11
530667.761310
 21
184203.901437
 31
0.0
  0
LINE
  8
0
  6
CONTINUOUS
 62
     7
 10
530798.725861
 20
184207.390438
 30
0.0
 11
530856.762846
 21
184149.487013
 31
0.0
  0
LINE
  8
0
  6
CONTINUOUS
 62
     7
 10
530810.755405
 20
184207.340453
 30
0.0
 11
530747.870324
 21
184145.998012
 31
0.0
  0
LINE
  8
0
  6
CONTINUOUS
 62
     7
 10
530753.938689
 20
184164.022852
 30
0.0
 11
530781.427723
 21
183967.049235
 31
0.0
  0
LINE
  8
0
  6
CONTINUOUS
 62
     7
 10
531070.977779
 20
184116.826362
 30
0.0
 11
530638.070845
 21
184123.954322
 31
0.0
  0
LINE
  8
0
  6
CONTINUOUS
 62
     7
 10
530855.674498
 20
184153.675814
 30
0.0
 11
530837.494138
 21
183967.908989
 31
0.0
  0
LINE
  8
0
  6
CONTINUOUS
 62
     7
 10
530776.925919
 20
183970.168342
 30
0.0
 11
530838.112518
 21
183968.488823
 31
0.0
  0
LINE
  8
0
  6
CONTINUOUS
 62
     7
 10
530817.351454
 20
183970.908131
 30
0.0
 11
530803.879024
 21
183673.983124
 31
0.0
  0
LINE
  8
0
  6
CONTINUOUS
 62
     7
 10
530803.318360
 20
183742.403539
 30
0.0
 11
530916.415863
 21
183745.002795
 31
0.0
  0
LINE
  8
0
  6
CONTINUOUS
 62
     7
 10
530932.996681
 20
184418.919889
 30
0.0
 11
530912.186147
 21
183663.646083
 31
0.0
  0
LINE
  8
0
  6
CONTINUOUS
 62
     7
 10
531426.867596
 20
184272.091918
 30
0.0
 11
530995.213912
 21
184191.105100
 31
0.0
  0
LINE
  8
0
  6
CONTINUOUS
 62
     7
 10
531006.303519
 20
184067.090599
 30
0.0
 11
530992.995991
 21
184260.565217
 31
0.0
  0
LINE
  8
0
  6
CONTINUOUS
 62
     7
 10
531065.503058
 20
184264.454104
 30
0.0
 11
531069.386482
 21
184200.262479
 31
0.0
  0
LINE
  8
0
  6
CONTINUOUS
 62
     7
 10
531014.260003
 20
184282.658893
 30
0.0
 11
531076.262863
 21
184252.777446
 31
0.0
  0
LINE
  8
0
  6
CONTINUOUS
 62
     7
 10
531446.820644
 20
184352.768824
 30
0.0
 11
531055.856337
 21
184254.057080
 31
0.0
  0
LINE
  8
0
  6
CONTINUOUS
 62
     7
 10
531101.674141
 20
184455.949289
 30
0.0
 11
531227.444303
 21
184068.530187
 31
0.0
  0
LINE
  8
0
  6
CONTINUOUS
 62
     7
 10
531445.270572
 20
184127.803220
 30
0.0
 11
531214.161510
 21
184067.600453
 31
0.0
  0
LINE
  8
0
  6
CONTINUOUS
 62
     7
 10
531225.605654
 20
184081.636435
 30
0.0
 11
531166.282440
 21
183883.173244
 31
0.0
  0
LINE
  8
0
  6
CONTINUOUS
 62
     7
 10
531189.244935
 20
183939.966987
 30
0.0
 11
531103.958023
 21
183944.145791
 31
0.0
  0
LINE
  8
0
  6
CONTINUOUS
 62
     7
 10
531274.235025
 20
184528.638482
 30
0.0
 11
531297.510832
 21
184441.573404
 31
0.0
  0
LINE
  8
0
  6
CONTINUOUS
 62
     7
 10
531332.577077
 20
184583.962646
 30
0.0
 11
531443.794706
 21
184125.074001
 31
0.0
  0
LINE
  8
0
  6
CONTINUOUS
 62
     7
 10
531441.626255
 20
184200.712350
 30
0.0
 11
531026.454449
 21
184114.297086
 31
0.0
  0
LINE
  8
0
  6
CONTINUOUS
 62
     7
 10
531438.204555
 20
184206.790610
 30
0.0
 11
531379.087467
 21
183726.907975
 31
0.0
  0
LINE
  8
0
  6
CONTINUOUS
 62
     7
 10
531409.569458
 20
184011.596484
 30
0.0
 11
531370.314722
 21
183511.419658
 31
0.0
  0
LINE
  8
0
  6
CONTINUOUS
 62
     7
 10
531396.253684
 20
183759.488649
 30
0.0
 11
531287.130300
 21
183716.111065
 31
0.0
  0
LINE
  8
0
  6
CONTINUOUS
 62
     7
 10
531391.413833
 20
183726.268158
 30
0.0
 11
531294.394199
 21
183777.773415
 31
0.0
  0
LINE
  8
0
  6
CONTINUOUS
 62
     7
 10
531311.931444
 20
183765.686875
 30
0.0
 11
531303.999695
 21
183967.539095
 31
0.0
  0
LINE
  8
0
  6
CONTINUOUS
 62
     7
 10
531403.294966
 20
183913.414588
 30
0.0
 11
531069.774000
 21
183880.953880
 31
0.0
  0
LINE
  8
0
  6
CONTINUOUS
 62
     7
 10
531081.160429
 20
183854.721389
 30
0.0
 11
531055.773886
 21
183973.477395
 31
0.0
  0
LINE
  8
0
  6
CONTINUOUS
 62
     7
 10
530979.070082
 20
183853.471746
 30
0.0
 11
531006.056167
 21
183971.198048
 31
0.0
  0
LINE
  8
0
  6
CONTINUOUS
 62
     7
 10
531057.760946
 20
183972.597647
 30
0.0
 11
531002.370625
 21
183965.559662
 31
0.0
  0
LINE
  8
0
  6
CONTINUOUS
 62
     7
 10
531237.536258
 20
183892.420597
 30
0.0
 11
530675.049944
 21
183881.163820
 31
0.0
  0
LINE
  8
0
  6
CONTINUOUS
 62
     7
 10
531246.803707
 20
183901.647956
 30
0.0
 11
531247.100529
 21
183877.364907
 31
0.0
  0
LINE
  8
0
  6
CONTINUOUS
 62
     7
 10
531423.297484
 20
184035.389673
 30
0.0
 11
531378.131040
 21
184039.148597
 31
0.0
  0
LINE
  8
0
  6
CONTINUOUS
 62
     7
 10
531385.988583
 20
184035.489644
 30
0.0
 11
531365.837654
 21
184048.645878
 31
0.0
  0
LINE
  8
0
  6
CONTINUOUS
 62
     7
 10
531368.607994
 20
184041.148025
 30
0.0
 11
531360.008395
 21
184112.477607
 31
0.0
  0
LINE
  8
0
  6
CONTINUOUS
 62
     7
 10
531176.638237
 20
183932.709065
 30
0.0
 11
531212.594948
 21
183499.852969
 31
0.0
  0
LINE
  8
0
  6
CONTINUOUS
 62
     7
 10
531385.782456
 20
183575.241389
 30
0.0
 11
531191.289710
 21
183523.406227
 31
0.0
  0
LINE
  8
0
  6
CONTINUOUS
 62
     7
 10
531226.595062
 20
183515.558473
 30
0.0
 11
530904.180192
 21
183681.790890
 31
0.0
  0
LINE
  8
0
  6
CONTINUOUS
 62
     7
 10
531157.699331
 20
183893.960157
 30
0.0
 11
531087.294754
 21
183504.461649
 31
0.0
  0
LINE
  8
0
  6
CONTINUOUS
 62
     7
 10
531029.208299
 20
183891.140964
 30
0.0
 11
531030.230687
 21
183855.631128
 31
0.0
  0
LINE
  8
0
  6
CONTINUOUS
 62
     7
 10
531182.681866
 20
183748.751722
 30
0.0
 11
531275.851057
 21
183743.153325
 31
0.0
  0
LINE
  8
0
  6
CONTINUOUS
 62
     7
 10
531312.920852
 20
183782.891950
 30
0.0
 11
531240.760077
 21
183741.113908
 31
0.0
  0
LINE
  8
0
  6
CONTINUOUS
 62
     7
 10
531238.319539
 20
183754.010217
 30
0.0
 11
531308.056265
 21
183714.501526
 31
0.0
  0
LINE
  8
0
  6
CONTINUOUS
 62
     7
 10
531303.282375
 20
183726.188181
 30
0.0
 11
531293.948966
 21
183547.909213
 31
0.0
  0
LINE
  8
0
  6
CONTINUOUS
 62
     7
 10
530731.660534
 20
183750.551207
 30
0.0
 11
530707.321114
 21
183575.611283
 31
0.0
  0
LINE
  8
0
  6
CONTINUOUS
 62
     7
 10
530973.265559
 20
183658.367594
 30
0.0
 11
530711.864142
 21
183690.118506
 31
0.0
  0
LINE
  8
0
  6
CONTINUOUS
 62
     7
 10
531139.131454
 20
184142.888902
 30
0.0
 11
531154.533228
 21
184098.471616
 31
0.0
  0
LINE
  8
0
  6
CONTINUOUS
 62
     7
 10
531155.786477
 20
184099.901207
 30
0.0
 11
531091.400795
 21
184089.164280
 31
0.0
  0
LINE
  8
0
  6
CONTINUOUS
 62
     7
 10
531060.226219
 20
184127.683254
 30
0.0
 11
531065.651469
 21
184023.503075
 31
0.0
  0
LINE
  8
0
  6
CONTINUOUS
 62
     7
 10
531213.139122
 20
184017.404821
 30
0.0
 11
530915.104898
 21
184035.689587
 31
0.0
  0
LINE
  8
0
  6
CONTINUOUS
 62
     7
 10
531281.498924
 20
184088.374506
 30
0.0
 11
531294.732247
 21
184020.813845
 31
0.0
  0
LINE
  8
0
  6
CONTINUOUS
 62
     7
 10
531322.328466
 20
184027.032065
 30
0.0
 11
531263.310319
 21
184015.655322
 31
0.0
  0
LINE
  8
0
  6
CONTINUOUS
 62
     7
 10
531267.276193
 20
184023.293136
 30
0.0
 11
531279.998323
 21
183953.103227
 31
0.0
  0
LINE
  8
0
  6
CONTINUOUS
 62
     7
 10
531276.790994
 20
183954.982689
 30
0.0
 11
531332.164824
 21
183964.220045
 31
0.0
  0
LINE
  8
0
  6
CONTINUOUS
 62
     7
 10
531315.938544
 20
184033.420237
 30
0.0
 11
531330.606508
 21
183957.322020
 31
0.0
  0
LINE
  8
0
  6
CONTINUOUS
 62
     7
 10
530917.998915
 20
183816.172423
 30
0.0
 11
530805.297175
 21
183814.472910
 31
0.0
  0
LINE
  8
0
  6
CONTINUOUS
 62
     7
 10
531389.731841
 20
184417.270361
 30
0.0
 11
531137.251580
 21
184338.103022
 31
0.0
  0
ENDSEC
  0
EOF
